ISO-10303-21;
HEADER;
FILE_DESCRIPTION (( 'STEP AP214' ),
    '1' );
FILE_NAME ('FULLVAC BT1KF252513.STEP',
    '2019-04-24T08:22:44',
    ( '' ),
    ( '' ),
    'SwSTEP 2.0',
    'SolidWorks 2017',
    '' );
FILE_SCHEMA (( 'AUTOMOTIVE_DESIGN' ));
ENDSEC;

DATA;
#1 = APPLICATION_CONTEXT ( 'automotive_design' ) ;
#2 = EDGE_LOOP ( 'NONE', ( #216 ) ) ;
#3 = ORIENTED_EDGE ( 'NONE', *, *, #96, .T. ) ;
#4 = CARTESIAN_POINT ( 'NONE',  ( 0.0000000000000000000, 0.0000000000000000000, 0.0000000000000000000 ) ) ;
#5 =( LENGTH_UNIT ( ) NAMED_UNIT ( * ) SI_UNIT ( .MILLI., .METRE. ) );
#6 = CYLINDRICAL_SURFACE ( 'NONE', #111, 19.94999999999999900 ) ;
#7 = MECHANICAL_DESIGN_GEOMETRIC_PRESENTATION_REPRESENTATION (  '', ( #67 ), #134 ) ;
#8 = EDGE_LOOP ( 'NONE', ( #108 ) ) ;
#9 = FACE_OUTER_BOUND ( 'NONE', #53, .T. ) ;
#10 = SURFACE_STYLE_FILL_AREA ( #138 ) ;
#11 = ADVANCED_FACE ( 'NONE', ( #76, #21 ), #6, .T. ) ;
#12 = DIRECTION ( 'NONE',  ( 0.0000000000000000000, 0.0000000000000000000, -1.000000000000000000 ) ) ;
#13 = ORIENTED_EDGE ( 'NONE', *, *, #92, .T. ) ;
#14 = ORIENTED_EDGE ( 'NONE', *, *, #153, .T. ) ;
#15 = CARTESIAN_POINT ( 'NONE',  ( -39.89999999999999900, 2.616336506010520100, 19.94999999999999900 ) ) ;
#16 = CIRCLE ( 'NONE', #105, 11.05000000000000100 ) ;
#17 = CARTESIAN_POINT ( 'NONE',  ( 0.0000000000000000000, 3.038388356863341000, 19.80673270176685500 ) ) ;
#18 = EDGE_LOOP ( 'NONE', ( #13 ) ) ;
#19 = AXIS2_PLACEMENT_3D ( 'NONE', #4, #22, #145 ) ;
#20 = DIRECTION ( 'NONE',  ( -0.0000000000000000000, -1.000000000000000000, -0.0000000000000000000 ) ) ;
#21 = FACE_OUTER_BOUND ( 'NONE', #112, .T. ) ;
#22 = DIRECTION ( 'NONE',  ( 0.0000000000000000000, 0.0000000000000000000, 1.000000000000000000 ) ) ;
#23 =( BOUNDED_SURFACE ( )  B_SPLINE_SURFACE ( 3, 3, ( 
 ( #243, #167, #56, #80, #140, #193, #39 ),
 ( #17, #162, #224, #189, #256, #81, #208 ),
 ( #225, #55, #205, #78, #222, #97, #165 ),
 ( #241, #240, #36, #141, #118, #15, #34 ) ),
 .UNSPECIFIED., .F., .T., .F. ) 
 B_SPLINE_SURFACE_WITH_KNOTS ( ( 4, 4 ),
 ( 4, 3, 4 ),
 ( 0.0000000000000000000, 1.000000000000000000 ),
 ( 0.0000000000000000000, 0.5000000000000000000, 1.000000000000000000 ),
 .UNSPECIFIED. ) 
 GEOMETRIC_REPRESENTATION_ITEM ( )  RATIONAL_B_SPLINE_SURFACE ( (
 ( 1.000000000000000000, 0.3333333333333333100, 0.3333333333333333100, 1.000000000000000000, 0.3333333333333333100, 0.3333333333333333100, 1.000000000000000000),
 ( 0.8622355601941740200, 0.2874118533980579700, 0.2874118533980579700, 0.8622355601941740200, 0.2874118533980579700, 0.2874118533980579700, 0.8622355601941740200),
 ( 0.8622355601941740200, 0.2874118533980579700, 0.2874118533980579700, 0.8622355601941740200, 0.2874118533980579700, 0.2874118533980579700, 0.8622355601941740200),
 ( 1.000000000000000000, 0.3333333333333333100, 0.3333333333333333100, 1.000000000000000000, 0.3333333333333333100, 0.3333333333333333100, 1.000000000000000000) ) ) 
 REPRESENTATION_ITEM ( '' )  SURFACE ( )  );
#24 = FACE_OUTER_BOUND ( 'NONE', #179, .T. ) ;
#25 = AXIS2_PLACEMENT_3D ( 'NONE', #235, #245, #147 ) ;
#26 = DIRECTION ( 'NONE',  ( 0.0000000000000000000, -0.0000000000000000000, 1.000000000000000000 ) ) ;
#27 = CARTESIAN_POINT ( 'NONE',  ( -6.986896036271009900E-016, 2.540000000000000000, -2.824994973600909800E-016 ) ) ;
#28 = CARTESIAN_POINT ( 'NONE',  ( 0.0000000000000000000, 0.0000000000000000000, 13.10000000000000100 ) ) ;
#29 = CARTESIAN_POINT ( 'NONE',  ( 0.0000000000000000000, 0.0000000000000000000, 0.0000000000000000000 ) ) ;
#30 = VERTEX_POINT ( 'NONE', #91 ) ;
#31 = CARTESIAN_POINT ( 'NONE',  ( 0.0000000000000000000, 3.099299419168884300, 0.0000000000000000000 ) ) ;
#32 = DIRECTION ( 'NONE',  ( 0.0000000000000000000, -0.0000000000000000000, 1.000000000000000000 ) ) ;
#33 =( GEOMETRIC_REPRESENTATION_CONTEXT ( 3 ) GLOBAL_UNCERTAINTY_ASSIGNED_CONTEXT ( ( #236 ) ) GLOBAL_UNIT_ASSIGNED_CONTEXT ( ( #252, #156, #50 ) ) REPRESENTATION_CONTEXT ( 'NONE', 'WORKASPACE' ) );
#34 = CARTESIAN_POINT ( 'NONE',  ( 0.0000000000000000000, 2.616336506010520100, 19.94999999999999900 ) ) ;
#35 = AXIS2_PLACEMENT_3D ( 'NONE', #161, #20, #254 ) ;
#36 = CARTESIAN_POINT ( 'NONE',  ( 39.89999999999999900, 2.616336506010520100, -19.94999999999999900 ) ) ;
#37 = CONICAL_SURFACE ( 'NONE', #176, 19.57940952255500400, 1.308996939000000000 ) ;
#38 = CARTESIAN_POINT ( 'NONE',  ( 0.0000000000000000000, 0.0000000000000000000, 0.0000000000000000000 ) ) ;
#39 = CARTESIAN_POINT ( 'NONE',  ( 0.0000000000000000000, 3.099299419155043400, 19.57940952255129800 ) ) ;
#40 = FACE_OUTER_BOUND ( 'NONE', #109, .T. ) ;
#41 = APPLICATION_CONTEXT ( 'automotive_design' ) ;
#42 = DIRECTION ( 'NONE',  ( 0.0000000000000000000, 1.000000000000000000, 0.0000000000000000000 ) ) ;
#43 = DIRECTION ( 'NONE',  ( 0.0000000000000000000, 1.000000000000000000, 0.0000000000000000000 ) ) ;
#44 = CARTESIAN_POINT ( 'NONE',  ( 0.0000000000000000000, 12.69999999999999900, 0.0000000000000000000 ) ) ;
#45 = CIRCLE ( 'NONE', #194, 13.10000000000000100 ) ;
#46 = ADVANCED_FACE ( 'NONE', ( #191, #40 ), #107, .F. ) ;
#47 = AXIS2_PLACEMENT_3D ( 'NONE', #129, #84, #123 ) ;
#48 = PRESENTATION_STYLE_ASSIGNMENT (( #65 ) ) ;
#49 = PRODUCT_DEFINITION_CONTEXT ( 'detailed design', #41, 'design' ) ;
#50 =( NAMED_UNIT ( * ) SI_UNIT ( $, .STERADIAN. ) SOLID_ANGLE_UNIT ( ) );
#51 = DIRECTION ( 'NONE',  ( -0.0000000000000000000, 1.000000000000000000, -0.0000000000000000000 ) ) ;
#52 = ORIENTED_EDGE ( 'NONE', *, *, #153, .F. ) ;
#53 = EDGE_LOOP ( 'NONE', ( #63 ) ) ;
#54 = DIRECTION ( 'NONE',  ( 0.0000000000000000000, 0.0000000000000000000, 1.000000000000000000 ) ) ;
#55 = CARTESIAN_POINT ( 'NONE',  ( 39.89999999999998400, 2.851678778707475100, 19.94999999999999200 ) ) ;
#56 = CARTESIAN_POINT ( 'NONE',  ( 39.15881904510259700, 3.099299419155042900, -19.57940952255129800 ) ) ;
#57 = VERTEX_POINT ( 'NONE', #186 ) ;
#58 = FACE_BOUND ( 'NONE', #115, .T. ) ;
#59 = DIRECTION ( 'NONE',  ( 0.0000000000000000000, -1.000000000000000000, 0.0000000000000000000 ) ) ;
#60 = CARTESIAN_POINT ( 'NONE',  ( 0.0000000000000000000, 12.69999999999999900, 0.0000000000000000000 ) ) ;
#61 = CARTESIAN_POINT ( 'NONE',  ( 0.0000000000000000000, 0.0000000000000000000, 0.0000000000000000000 ) ) ;
#62 = EDGE_LOOP ( 'NONE', ( #127 ) ) ;
#63 = ORIENTED_EDGE ( 'NONE', *, *, #72, .T. ) ;
#64 = COLOUR_RGB ( '',0.7450980392156862900, 0.7450980392156862900, 0.7450980392156862900 ) ;
#65 = SURFACE_STYLE_USAGE ( .BOTH. , #85 ) ;
#66 = CARTESIAN_POINT ( 'NONE',  ( -7.124026915581379500E-016, 12.69999999999999900, -2.913971193241879800E-016 ) ) ;
#67 = STYLED_ITEM ( 'NONE', ( #100 ), #148 ) ;
#68 = CIRCLE ( 'NONE', #25, 19.94999999999999900 ) ;
#69 = EDGE_LOOP ( 'NONE', ( #178 ) ) ;
#70 = EDGE_LOOP ( 'NONE', ( #160 ) ) ;
#71 = PRODUCT ( 'FULLVAC BT1KF252513', 'FULLVAC BT1KF252513', '', ( #102 ) ) ;
#72 = EDGE_CURVE ( 'NONE', #257, #257, #143, .T. ) ;
#73 = CARTESIAN_POINT ( 'NONE',  ( 0.0000000000000000000, 3.099299419168884300, 0.0000000000000000000 ) ) ;
#74 = CARTESIAN_POINT ( 'NONE',  ( 0.0000000000000000000, 0.0000000000000000000, 19.94999999999999900 ) ) ;
#75 = ADVANCED_FACE ( 'NONE', ( #58, #233 ), #239, .F. ) ;
#76 = FACE_OUTER_BOUND ( 'NONE', #185, .T. ) ;
#77 = DIRECTION ( 'NONE',  ( -0.0000000000000000000, -1.000000000000000000, -0.0000000000000000000 ) ) ;
#78 = CARTESIAN_POINT ( 'NONE',  ( 0.0000000000000000000, 2.851678778707475500, -19.95000000000000300 ) ) ;
#79 = COLOUR_RGB ( '',0.7450980392156862900, 0.7450980392156862900, 0.7450980392156862900 ) ;
#80 = CARTESIAN_POINT ( 'NONE',  ( 0.0000000000000000000, 3.099299419155043400, -19.57940952255129800 ) ) ;
#81 = CARTESIAN_POINT ( 'NONE',  ( -39.61346540353369500, 3.038388356863341400, 19.80673270176684800 ) ) ;
#82 = DIRECTION ( 'NONE',  ( 0.0000000000000000000, 1.000000000000000000, 0.0000000000000000000 ) ) ;
#83 = EDGE_CURVE ( 'NONE', #250, #250, #16, .T. ) ;
#84 = DIRECTION ( 'NONE',  ( 0.0000000000000000000, 1.000000000000000000, 0.0000000000000000000 ) ) ;
#85 = SURFACE_SIDE_STYLE ('',( #119 ) ) ;
#86 = ORIENTED_EDGE ( 'NONE', *, *, #219, .F. ) ;
#87 = UNCERTAINTY_MEASURE_WITH_UNIT (LENGTH_MEASURE( 1.000000000000000100E-005 ), #5, 'distance_accuracy_value', 'NONE');
#88 = AXIS2_PLACEMENT_3D ( 'NONE', #44, #246, #89 ) ;
#89 = DIRECTION ( 'NONE',  ( 0.0000000000000000000, 0.0000000000000000000, -1.000000000000000000 ) ) ;
#90 = UNCERTAINTY_MEASURE_WITH_UNIT (LENGTH_MEASURE( 1.000000000000000100E-005 ), #171, 'distance_accuracy_value', 'NONE');
#91 = CARTESIAN_POINT ( 'NONE',  ( 0.0000000000000000000, 3.099299419168884300, 19.57940952255500400 ) ) ;
#92 = EDGE_CURVE ( 'NONE', #209, #209, #248, .T. ) ;
#93 = DIRECTION ( 'NONE',  ( -0.0000000000000000000, -1.000000000000000000, -0.0000000000000000000 ) ) ;
#94 = FACE_OUTER_BOUND ( 'NONE', #62, .T. ) ;
#95 = ADVANCED_FACE ( 'NONE', ( #180, #203 ), #23, .T. ) ;
#96 = EDGE_CURVE ( 'NONE', #214, #214, #68, .T. ) ;
#97 = CARTESIAN_POINT ( 'NONE',  ( -39.89999999999998400, 2.851678778707475100, 19.94999999999999200 ) ) ;
#98 = SURFACE_STYLE_USAGE ( .BOTH. , #232 ) ;
#99 = ORIENTED_EDGE ( 'NONE', *, *, #72, .F. ) ;
#100 = PRESENTATION_STYLE_ASSIGNMENT (( #98 ) ) ;
#101 = CARTESIAN_POINT ( 'NONE',  ( 0.0000000000000000000, 12.69999999999999900, 0.0000000000000000000 ) ) ;
#102 = PRODUCT_CONTEXT ( 'NONE', #1, 'mechanical' ) ;
#103 = ORIENTED_EDGE ( 'NONE', *, *, #96, .F. ) ;
#104 = PLANE ( 'NONE',  #158 ) ;
#105 = AXIS2_PLACEMENT_3D ( 'NONE', #101, #59, #192 ) ;
#106 = CIRCLE ( 'NONE', #144, 11.05000000000000100 ) ;
#107 = CYLINDRICAL_SURFACE ( 'NONE', #237, 13.10000000000000100 ) ;
#108 = ORIENTED_EDGE ( 'NONE', *, *, #223, .T. ) ;
#109 = EDGE_LOOP ( 'NONE', ( #116 ) ) ;
#110 =( NAMED_UNIT ( * ) SI_UNIT ( $, .STERADIAN. ) SOLID_ANGLE_UNIT ( ) );
#111 = AXIS2_PLACEMENT_3D ( 'NONE', #61, #125, #207 ) ;
#112 = EDGE_LOOP ( 'NONE', ( #226 ) ) ;
#113 = FACE_OUTER_BOUND ( 'NONE', #70, .T. ) ;
#114 = DIRECTION ( 'NONE',  ( 0.0000000000000000000, 0.0000000000000000000, -1.000000000000000000 ) ) ;
#115 = EDGE_LOOP ( 'NONE', ( #188 ) ) ;
#116 = ORIENTED_EDGE ( 'NONE', *, *, #92, .F. ) ;
#117 = VERTEX_POINT ( 'NONE', #28 ) ;
#118 = CARTESIAN_POINT ( 'NONE',  ( -39.89999999999999900, 2.616336506010520100, -19.94999999999999900 ) ) ;
#119 = SURFACE_STYLE_FILL_AREA ( #231 ) ;
#120 = PRODUCT_RELATED_PRODUCT_CATEGORY ( 'part', '', ( #71 ) ) ;
#121 = AXIS2_PLACEMENT_3D ( 'NONE', #197, #42, #26 ) ;
#122 = DIRECTION ( 'NONE',  ( -0.0000000000000000000, -1.000000000000000000, -0.0000000000000000000 ) ) ;
#123 = DIRECTION ( 'NONE',  ( 0.0000000000000000000, 0.0000000000000000000, 1.000000000000000000 ) ) ;
#124 = PRODUCT_DEFINITION_SHAPE ( 'NONE', 'NONE',  #182 ) ;
#125 = DIRECTION ( 'NONE',  ( 0.0000000000000000000, 1.000000000000000000, 0.0000000000000000000 ) ) ;
#126 = EDGE_LOOP ( 'NONE', ( #14 ) ) ;
#127 = ORIENTED_EDGE ( 'NONE', *, *, #83, .F. ) ;
#128 = APPLICATION_PROTOCOL_DEFINITION ( 'draft international standard', 'automotive_design', 1998, #41 ) ;
#129 = CARTESIAN_POINT ( 'NONE',  ( 0.0000000000000000000, 0.0000000000000000000, 0.0000000000000000000 ) ) ;
#130 = AXIS2_PLACEMENT_3D ( 'NONE', #60, #122, #54 ) ;
#131 = FACE_OUTER_BOUND ( 'NONE', #69, .T. ) ;
#132 = CIRCLE ( 'NONE', #47, 19.94999999999999900 ) ;
#133 = ADVANCED_FACE ( 'NONE', ( #215, #131 ), #172, .F. ) ;
#134 =( GEOMETRIC_REPRESENTATION_CONTEXT ( 3 ) GLOBAL_UNCERTAINTY_ASSIGNED_CONTEXT ( ( #90 ) ) GLOBAL_UNIT_ASSIGNED_CONTEXT ( ( #171, #196, #229 ) ) REPRESENTATION_CONTEXT ( 'NONE', 'WORKASPACE' ) );
#135 = CARTESIAN_POINT ( 'NONE',  ( 0.0000000000000000000, 2.540000000000000500, 0.0000000000000000000 ) ) ;
#136 = PRESENTATION_LAYER_ASSIGNMENT (  '', '', ( #190 ) ) ;
#137 = MANIFOLD_SOLID_BREP ( '\X2\5BE69AD4\X0\1', #168 ) ;
#138 = FILL_AREA_STYLE ('',( #249 ) ) ;
#139 = AXIS2_PLACEMENT_3D ( 'NONE', #27, #152, #32 ) ;
#140 = CARTESIAN_POINT ( 'NONE',  ( -39.15881904510259700, 3.099299419155042900, -19.57940952255129800 ) ) ;
#141 = CARTESIAN_POINT ( 'NONE',  ( 0.0000000000000000000, 2.616336506010520100, -19.94999999999999900 ) ) ;
#142 = CIRCLE ( 'NONE', #200, 19.57940952255500400 ) ;
#143 = CIRCLE ( 'NONE', #130, 12.69999999999999900 ) ;
#144 = AXIS2_PLACEMENT_3D ( 'NONE', #135, #238, #114 ) ;
#145 = DIRECTION ( 'NONE',  ( 1.000000000000000000, 0.0000000000000000000, 0.0000000000000000000 ) ) ;
#146 = SHAPE_DEFINITION_REPRESENTATION ( #124, #148 ) ;
#147 = DIRECTION ( 'NONE',  ( 0.0000000000000000000, 0.0000000000000000000, 1.000000000000000000 ) ) ;
#148 = ADVANCED_BREP_SHAPE_REPRESENTATION ( 'FULLVAC BT1KF252513', ( #137, #19 ), #33 ) ;
#149 = AXIS2_PLACEMENT_3D ( 'NONE', #199, #175, #213 ) ;
#150 = CYLINDRICAL_SURFACE ( 'NONE', #88, 11.05000000000000100 ) ;
#151 = CIRCLE ( 'NONE', #149, 12.69999999999586900 ) ;
#152 = DIRECTION ( 'NONE',  ( 0.0000000000000000000, 1.000000000000000000, 0.0000000000000000000 ) ) ;
#153 = EDGE_CURVE ( 'NONE', #57, #57, #151, .T. ) ;
#154 = ADVANCED_FACE ( 'NONE', ( #210, #24 ), #104, .T. ) ;
#155 = VERTEX_POINT ( 'NONE', #74 ) ;
#156 =( NAMED_UNIT ( * ) PLANE_ANGLE_UNIT ( ) SI_UNIT ( $, .RADIAN. ) );
#157 = ADVANCED_FACE ( 'NONE', ( #9, #169 ), #163, .T. ) ;
#158 = AXIS2_PLACEMENT_3D ( 'NONE', #66, #43, #174 ) ;
#159 = DIRECTION ( 'NONE',  ( 0.0000000000000000000, 0.0000000000000000000, 1.000000000000000000 ) ) ;
#160 = ORIENTED_EDGE ( 'NONE', *, *, #255, .F. ) ;
#161 = CARTESIAN_POINT ( 'NONE',  ( 0.0000000000000000000, 2.540000000000000000, 0.0000000000000000000 ) ) ;
#162 = CARTESIAN_POINT ( 'NONE',  ( 39.61346540353369500, 3.038388356863341400, 19.80673270176684800 ) ) ;
#163 = CYLINDRICAL_SURFACE ( 'NONE', #242, 12.69999999999999900 ) ;
#164 = FACE_BOUND ( 'NONE', #126, .T. ) ;
#165 = CARTESIAN_POINT ( 'NONE',  ( 0.0000000000000000000, 2.851678778707475500, 19.95000000000000300 ) ) ;
#166 = MECHANICAL_DESIGN_GEOMETRIC_PRESENTATION_REPRESENTATION (  '', ( #190 ), #184 ) ;
#167 = CARTESIAN_POINT ( 'NONE',  ( 39.15881904510259700, 3.099299419155042900, 19.57940952255129800 ) ) ;
#168 = CLOSED_SHELL ( 'NONE', ( #187, #95, #157, #11, #154, #133, #181, #46, #75 ) ) ;
#169 = FACE_OUTER_BOUND ( 'NONE', #228, .T. ) ;
#170 = ORIENTED_EDGE ( 'NONE', *, *, #83, .T. ) ;
#171 =( LENGTH_UNIT ( ) NAMED_UNIT ( * ) SI_UNIT ( .MILLI., .METRE. ) );
#172 = PLANE ( 'NONE',  #121 ) ;
#173 = EDGE_CURVE ( 'NONE', #155, #155, #132, .T. ) ;
#174 = DIRECTION ( 'NONE',  ( 0.0000000000000000000, -0.0000000000000000000, 1.000000000000000000 ) ) ;
#175 = DIRECTION ( 'NONE',  ( 0.0000000000000000000, -1.000000000000000000, 0.0000000000000000000 ) ) ;
#176 = AXIS2_PLACEMENT_3D ( 'NONE', #73, #77, #12 ) ;
#177 = EDGE_LOOP ( 'NONE', ( #170 ) ) ;
#178 = ORIENTED_EDGE ( 'NONE', *, *, #173, .F. ) ;
#179 = EDGE_LOOP ( 'NONE', ( #99 ) ) ;
#180 = FACE_OUTER_BOUND ( 'NONE', #221, .T. ) ;
#181 = ADVANCED_FACE ( 'NONE', ( #94, #113 ), #150, .F. ) ;
#182 = PRODUCT_DEFINITION ( 'UNKNOWN', '', #251, #49 ) ;
#183 = CARTESIAN_POINT ( 'NONE',  ( 0.0000000000000000000, 2.540000000000000000, 13.10000000000000100 ) ) ;
#184 =( GEOMETRIC_REPRESENTATION_CONTEXT ( 3 ) GLOBAL_UNCERTAINTY_ASSIGNED_CONTEXT ( ( #87 ) ) GLOBAL_UNIT_ASSIGNED_CONTEXT ( ( #5, #211, #110 ) ) REPRESENTATION_CONTEXT ( 'NONE', 'WORKASPACE' ) );
#185 = EDGE_LOOP ( 'NONE', ( #103 ) ) ;
#186 = CARTESIAN_POINT ( 'NONE',  ( 0.0000000000000000000, 4.942631645110222600, 12.69999999999586900 ) ) ;
#187 = ADVANCED_FACE ( 'NONE', ( #218, #164 ), #37, .T. ) ;
#188 = ORIENTED_EDGE ( 'NONE', *, *, #255, .T. ) ;
#189 = CARTESIAN_POINT ( 'NONE',  ( 0.0000000000000000000, 3.038388356863341000, -19.80673270176685500 ) ) ;
#190 = STYLED_ITEM ( 'NONE', ( #48 ), #137 ) ;
#191 = FACE_OUTER_BOUND ( 'NONE', #8, .T. ) ;
#192 = DIRECTION ( 'NONE',  ( 0.0000000000000000000, 0.0000000000000000000, -1.000000000000000000 ) ) ;
#193 = CARTESIAN_POINT ( 'NONE',  ( -39.15881904510259700, 3.099299419155042900, 19.57940952255129800 ) ) ;
#194 = AXIS2_PLACEMENT_3D ( 'NONE', #29, #93, #159 ) ;
#195 = APPLICATION_PROTOCOL_DEFINITION ( 'draft international standard', 'automotive_design', 1998, #1 ) ;
#196 =( NAMED_UNIT ( * ) PLANE_ANGLE_UNIT ( ) SI_UNIT ( $, .RADIAN. ) );
#197 = CARTESIAN_POINT ( 'NONE',  ( 9.456012226724710300E-016, 0.0000000000000000000, -3.710018461571120000E-016 ) ) ;
#198 = CARTESIAN_POINT ( 'NONE',  ( 0.0000000000000000000, 0.0000000000000000000, 0.0000000000000000000 ) ) ;
#199 = CARTESIAN_POINT ( 'NONE',  ( 0.0000000000000000000, 4.942631645110222600, 0.0000000000000000000 ) ) ;
#200 = AXIS2_PLACEMENT_3D ( 'NONE', #31, #51, #201 ) ;
#201 = DIRECTION ( 'NONE',  ( 0.0000000000000000000, 0.0000000000000000000, 1.000000000000000000 ) ) ;
#202 = CARTESIAN_POINT ( 'NONE',  ( 0.0000000000000000000, 12.69999999999999900, 12.69999999999999900 ) ) ;
#203 = FACE_OUTER_BOUND ( 'NONE', #234, .T. ) ;
#204 = CARTESIAN_POINT ( 'NONE',  ( 0.0000000000000000000, 12.69999999999999900, -11.05000000000000100 ) ) ;
#205 = CARTESIAN_POINT ( 'NONE',  ( 39.89999999999998400, 2.851678778707475100, -19.94999999999999200 ) ) ;
#206 = PRESENTATION_LAYER_ASSIGNMENT (  '', '', ( #67 ) ) ;
#207 = DIRECTION ( 'NONE',  ( 0.0000000000000000000, 0.0000000000000000000, 1.000000000000000000 ) ) ;
#208 = CARTESIAN_POINT ( 'NONE',  ( 0.0000000000000000000, 3.038388356863341000, 19.80673270176685500 ) ) ;
#209 = VERTEX_POINT ( 'NONE', #183 ) ;
#210 = FACE_BOUND ( 'NONE', #177, .T. ) ;
#211 =( NAMED_UNIT ( * ) PLANE_ANGLE_UNIT ( ) SI_UNIT ( $, .RADIAN. ) );
#212 = DIRECTION ( 'NONE',  ( 0.0000000000000000000, 0.0000000000000000000, 1.000000000000000000 ) ) ;
#213 = DIRECTION ( 'NONE',  ( 0.0000000000000000000, 0.0000000000000000000, 1.000000000000000000 ) ) ;
#214 = VERTEX_POINT ( 'NONE', #253 ) ;
#215 = FACE_BOUND ( 'NONE', #227, .T. ) ;
#216 = ORIENTED_EDGE ( 'NONE', *, *, #219, .T. ) ;
#217 = CARTESIAN_POINT ( 'NONE',  ( 0.0000000000000000000, 2.540000000000000500, -11.05000000000000100 ) ) ;
#218 = FACE_OUTER_BOUND ( 'NONE', #2, .T. ) ;
#219 = EDGE_CURVE ( 'NONE', #30, #30, #142, .T. ) ;
#220 = ORIENTED_EDGE ( 'NONE', *, *, #223, .F. ) ;
#221 = EDGE_LOOP ( 'NONE', ( #86 ) ) ;
#222 = CARTESIAN_POINT ( 'NONE',  ( -39.89999999999998400, 2.851678778707475100, -19.94999999999999200 ) ) ;
#223 = EDGE_CURVE ( 'NONE', #117, #117, #45, .T. ) ;
#224 = CARTESIAN_POINT ( 'NONE',  ( 39.61346540353369500, 3.038388356863341400, -19.80673270176684800 ) ) ;
#225 = CARTESIAN_POINT ( 'NONE',  ( 0.0000000000000000000, 2.851678778707475500, 19.95000000000000300 ) ) ;
#226 = ORIENTED_EDGE ( 'NONE', *, *, #173, .T. ) ;
#227 = EDGE_LOOP ( 'NONE', ( #220 ) ) ;
#228 = EDGE_LOOP ( 'NONE', ( #52 ) ) ;
#229 =( NAMED_UNIT ( * ) SI_UNIT ( $, .STERADIAN. ) SOLID_ANGLE_UNIT ( ) );
#230 = DIRECTION ( 'NONE',  ( 0.0000000000000000000, 1.000000000000000000, 0.0000000000000000000 ) ) ;
#231 = FILL_AREA_STYLE ('',( #244 ) ) ;
#232 = SURFACE_SIDE_STYLE ('',( #10 ) ) ;
#233 = FACE_OUTER_BOUND ( 'NONE', #18, .T. ) ;
#234 = EDGE_LOOP ( 'NONE', ( #3 ) ) ;
#235 = CARTESIAN_POINT ( 'NONE',  ( 0.0000000000000000000, 2.616336506010520100, 0.0000000000000000000 ) ) ;
#236 = UNCERTAINTY_MEASURE_WITH_UNIT (LENGTH_MEASURE( 1.000000000000000100E-005 ), #252, 'distance_accuracy_value', 'NONE');
#237 = AXIS2_PLACEMENT_3D ( 'NONE', #38, #82, #258 ) ;
#238 = DIRECTION ( 'NONE',  ( -0.0000000000000000000, 1.000000000000000000, -0.0000000000000000000 ) ) ;
#239 = PLANE ( 'NONE',  #139 ) ;
#240 = CARTESIAN_POINT ( 'NONE',  ( 39.89999999999999900, 2.616336506010520100, 19.94999999999999900 ) ) ;
#241 = CARTESIAN_POINT ( 'NONE',  ( 0.0000000000000000000, 2.616336506010520100, 19.94999999999999900 ) ) ;
#242 = AXIS2_PLACEMENT_3D ( 'NONE', #198, #230, #212 ) ;
#243 = CARTESIAN_POINT ( 'NONE',  ( 0.0000000000000000000, 3.099299419155043400, 19.57940952255129800 ) ) ;
#244 = FILL_AREA_STYLE_COLOUR ( '', #79 ) ;
#245 = DIRECTION ( 'NONE',  ( 0.0000000000000000000, 1.000000000000000000, 0.0000000000000000000 ) ) ;
#246 = DIRECTION ( 'NONE',  ( 0.0000000000000000000, -1.000000000000000000, 0.0000000000000000000 ) ) ;
#247 = VERTEX_POINT ( 'NONE', #217 ) ;
#248 = CIRCLE ( 'NONE', #35, 13.10000000000000100 ) ;
#249 = FILL_AREA_STYLE_COLOUR ( '', #64 ) ;
#250 = VERTEX_POINT ( 'NONE', #204 ) ;
#251 = PRODUCT_DEFINITION_FORMATION_WITH_SPECIFIED_SOURCE ( 'ANY', '', #71, .NOT_KNOWN. ) ;
#252 =( LENGTH_UNIT ( ) NAMED_UNIT ( * ) SI_UNIT ( .MILLI., .METRE. ) );
#253 = CARTESIAN_POINT ( 'NONE',  ( 0.0000000000000000000, 2.616336506010520100, 19.94999999999999900 ) ) ;
#254 = DIRECTION ( 'NONE',  ( 0.0000000000000000000, 0.0000000000000000000, 1.000000000000000000 ) ) ;
#255 = EDGE_CURVE ( 'NONE', #247, #247, #106, .T. ) ;
#256 = CARTESIAN_POINT ( 'NONE',  ( -39.61346540353369500, 3.038388356863341400, -19.80673270176684800 ) ) ;
#257 = VERTEX_POINT ( 'NONE', #202 ) ;
#258 = DIRECTION ( 'NONE',  ( 0.0000000000000000000, 0.0000000000000000000, 1.000000000000000000 ) ) ;
ENDSEC;
END-ISO-10303-21;
